Sunday, October 18

Cinta Pantai Merdeka - Tropika



Intro

e|--0-0-0-0-0-0-0-0-0--|--------------0--|
B|--0-0-3-1-0-0-0-3-1--|--------------0--|
G|--2-2-2-2-2-2-2-2-2--|--------------1--|
D|--2-2-2-2-2-2-2-2-2--|--2-2-3\2-----2--|
A|--0-0-0-0-0-0-0-0-0--|----------5-3-2--|
E|---------------------|--------------0--|


Verse

Am Dm
Telah bertahun lama
G C \B
Tenggelam arus masa
Am Dm
Di dalam ingatan ku
G Am
Masih segar terasa

e|--0-0-0-0-0-0-0-0-0--|
B|--0-0-3-1-0-0-0-3-1--|
G|--2-2-2-2-2-2-2-2-2--|
D|--2-2-2-2-2-2-2-2-2--|
A|--0-0-0-0-0-0-0-0-0--|
E|---------------------|

Am Dm
Terkadang aku sama
G C \ B
Mengatur bunga cinta
Am Dm
Keadaan ku memaksa
G Am
Kita terpisah jua
G Am
Andainya aku berdaya
G C
Kan ku coretkan untuk mu
G Am
Sebagai kenangan kita
G C
Kan ku buktikan untuk mu
Dm E F E
Akan aku buktikan


Am G - F
Ku ukir nama mu di awan gunung jerai
E Am
Disaksikan laut daun nyiur melambai
Am G - F
Jauh pandangan permai di situ tanjung dawai
E Am
Terkenang peristiwa cinta kita terurai

Dm Am
Oh indahnya peritiwa
F E
Cinta kita di pantai merdeka

E
oo.......ooo?..ooo......

Am Dm
Masih ingatkah oh kekasih
G C - E
Biar pun kini kau dimana
Am Dm
Namun dengarlah lagu ini
F G Am
Cinta kita di pantai merdeka

Am G - F
Kan ku ukir nama mu di awan gunung jerai
E Am
Bersaksikan laut daun nyiur melambai
Am G - F
Jauh pandangan permai di situ tanjung dawai
E Am
Terkenang peristiwa cinta kita terurai

Dm Am
Oh indahnya peristiwa
F E
Cinta kita di pantai merdeka
Am Dm
Masih ingatkah oh kekasih
G C - E
Biar pun kini kau dimana
Am Dm
Namun dengarlah lagu ini
F G Am
Cinta kita di pantai merdeka ( 2 x )

Outro

e|--0-0-0-0-0-0-0-0-0--|
B|--0-0-3-1-0-0-0-3-1--|
G|--2-2-2-2-2-2-2-2-2--|
D|--2-2-2-2-2-2-2-2-2--|
A|--0-0-0-0-0-0-0-0-0--|
E|---------------------|

--- e n d --

No comments:

Post a Comment